Wheel Hoss

Guitar tab

Part A
  G       F         G       F         G       F         D       G
1 |   |   |   |   2 |   |   |   |   3 |   |   |   |   4 |   |   |   |
|-----------------|-----------------|-----------------|-----------------|
|-----------------|-----------------|---------------2/|-3-----3---------|
|-------0-----0---|-------0-----0---|-------0-----0---|---0-5---4-0-----|
|-----0---3-0---0-|-----0---3-0---0-|-----0---3-0-----|-----------------|
|---2-------------|---2-------------|---2-------------|-----------------|
|-3---------------|-3---------------|-3---------------|-----------------|

  G       F         G       F         G       F         D       G
5 |   |   |   |   6 |   |   |   |   7 |   |   |   |   8 |   |   |   |
|-----------------|-----------------|-----------------|-----------------|
|-----------------|-----------------|-----------------|-----------------|
|-------0-----0---|-3---0---0-------|-------------0-2-|-4-0-2---0-------|
|-----0---3-0---0-|-------3---3P0---|---------0-2-----|-------4---------|
|---2-------------|---------------2-|---0-1-2---------|-----------------|
|-3---------------|-----------------|-3---------------|-----------------|


Part B
  G
17|   |   |   |  18 |   |   |   |  19 |   |   |   |  20 |   |   |   |
|-3-------3---0-2-|-3-0-------------|-3-------3-------|/7---------------|
|---3---3---------|-----3-1-0-------|---3---3---------|-----A-8---8-----|
|-----0-----------|-----------2-0---|-----0-----------|---------9-------|
|-----------------|-----------------|-----------------|-----------------|
|-----------------|-----------------|-----------------|-----------------|
|-----------------|-----------------|-----------------|-----------------|

                                                        D       G
21|   |   |   |  22 |   |   |   |  23 |   |   |   |  24 |   |   |   |
|-A-------7-------|-----------------|-----------------|-----------------|
|-B~------8---0-3-|---0-3-----------|-----------------|-----------------|
|-------------0-3-|H4-0-3H4-0-------|-------------0-2-|-4-0-2---0-------|
|-----------------|-----------2-0---|-------0-2-0-----|-------4---------|
|-----------------|---------------2-|-0-1-2-----------|-----------------|
|-----------------|-----------------|-----------------|-----------------|


 

 

Back to Glenn Weiser's traditional tunebook index

Email: banjoandguitar100@yahoo.com
  

Home  |  Celtic Fingerstyle Guitar Books  |  Harmonica Books  |  Music Lessons  | CDs
 Harmonica Main  |  Celtic Main  |  Blues Main  |  Fingerstyle Main  |  Woodstock 69  |  Reviews 
Free Celtic Guitar Arrangements  |  Free Celtic Harmonica Arrangements  |  Online Celtic Tunebook

Writings  | MySpace Page  |  Discographies  |  To Order Books  |  Contact  |  Links  | Translate